ISO-10303-21;
HEADER;
/* Generated by software containing ST-Developer
 * from STEP Tools, Inc. (www.steptools.com) 
 */

FILE_DESCRIPTION(
/* description */ (''),
/* implementation_level */ '2;1');

FILE_NAME(
/* name */ '',
/* time_stamp */ '2025-07-24T10:12:24+07:00',
/* author */ ('zeta-86'),
/* organization */ (''),
/* preprocessor_version */ 'ST-DEVELOPER v19.2',
/* originating_system */ 'Autodesk Inventor 2024',
/* authorisation */ '');

FILE_SCHEMA (('AUTOMOTIVE_DESIGN { 1 0 10303 214 3 1 1 }'));
ENDSEC;

DATA;
#10=MECHANICAL_DESIGN_GEOMETRIC_PRESENTATION_REPRESENTATION('',(#13),#466);
#11=SHAPE_REPRESENTATION_RELATIONSHIP('SRR','None',#473,#12);
#12=ADVANCED_BREP_SHAPE_REPRESENTATION('',(#14),#465);
#13=STYLED_ITEM('',(#482),#14);
#14=MANIFOLD_SOLID_BREP('\X2\04220432043504400434043E0435\X0\ \X2\04420435043B043E\X0\2',
#221);
#15=TOROIDAL_SURFACE('',#274,11.15,0.75);
#16=(
BOUNDED_SURFACE()
B_SPLINE_SURFACE(2,2,((#433,#434,#435,#436,#437,#438,#439,#440,#441),(#442,
#443,#444,#445,#446,#447,#448,#449,#450),(#451,#452,#453,#454,#455,#456,
#457,#458,#459)),.UNSPECIFIED.,.F.,.T.,.F.)
B_SPLINE_SURFACE_WITH_KNOTS((3,3),(3,2,2,2,3),(1.32272406609228,1.54974888016647),
(-3.14159265358979,-1.5707963267949,0.,1.5707963267949,3.14159265358979),
 .UNSPECIFIED.)
GEOMETRIC_REPRESENTATION_ITEM()
RATIONAL_B_SPLINE_SURFACE(((1.,0.707106781186548,1.,0.707106781186548,1.,
0.707106781186548,1.,0.707106781186548,1.),(0.993564381459709,0.702556111675578,
0.993564381459709,0.702556111675578,0.993564381459709,0.702556111675578,
0.993564381459709,0.702556111675578,0.993564381459709),(1.,0.707106781186548,
1.,0.707106781186548,1.,0.707106781186548,1.,0.707106781186548,1.)))
REPRESENTATION_ITEM('')
SURFACE()
);
#17=CONICAL_SURFACE('',#259,9.5,0.785398163397445);
#18=CONICAL_SURFACE('',#263,10.825,0.785398163397448);
#19=CONICAL_SURFACE('',#269,10.825,0.785398163397448);
#20=B_SPLINE_CURVE_WITH_KNOTS('',3,(#370,#371,#372,#373,#374,#375),
 .UNSPECIFIED.,.F.,.F.,(4,2,4),(-15.2636856762355,-14.5046945892515,-13.7457035139425),
 .UNSPECIFIED.);
#21=B_SPLINE_CURVE_WITH_KNOTS('',3,(#380,#381,#382,#383,#384,#385),
 .UNSPECIFIED.,.F.,.F.,(4,2,4),(13.745703513986,14.5046945892508,15.2636856761906),
 .UNSPECIFIED.);
#22=B_SPLINE_CURVE_WITH_KNOTS('',3,(#389,#390,#391,#392,#393,#394),
 .UNSPECIFIED.,.F.,.F.,(4,2,4),(3.26251064823373,3.29113430953749,3.36705736504197),
 .UNSPECIFIED.);
#23=B_SPLINE_CURVE_WITH_KNOTS('',3,(#395,#396,#397,#398,#399,#400,#401),
 .UNSPECIFIED.,.F.,.F.,(4,3,4),(6.72337332412828,6.82382200121737,6.92423063462897),
 .UNSPECIFIED.);
#24=B_SPLINE_CURVE_WITH_KNOTS('',3,(#402,#403,#404,#405),.UNSPECIFIED.,
 .F.,.F.,(4,4),(3.36705736504197,3.47214306221292),.UNSPECIFIED.);
#25=LINE('',#363,#31);
#26=LINE('',#408,#32);
#27=LINE('',#417,#33);
#28=LINE('',#424,#34);
#29=LINE('',#426,#35);
#30=LINE('',#432,#36);
#31=VECTOR('',#294,10.4);
#32=VECTOR('',#311,9.5);
#33=VECTOR('',#322,10.825);
#34=VECTOR('',#331,11.25);
#35=VECTOR('',#334,10.825);
#36=VECTOR('',#341,12.);
#37=CYLINDRICAL_SURFACE('',#249,10.4);
#38=CYLINDRICAL_SURFACE('',#258,38.4020218760031);
#39=CYLINDRICAL_SURFACE('',#266,11.25);
#40=CYLINDRICAL_SURFACE('',#270,12.);
#41=FACE_BOUND('',#58,.T.);
#42=FACE_BOUND('',#66,.T.);
#43=FACE_OUTER_BOUND('',#57,.T.);
#44=FACE_OUTER_BOUND('',#59,.T.);
#45=FACE_OUTER_BOUND('',#60,.T.);
#46=FACE_OUTER_BOUND('',#61,.T.);
#47=FACE_OUTER_BOUND('',#62,.T.);
#48=FACE_OUTER_BOUND('',#63,.T.);
#49=FACE_OUTER_BOUND('',#64,.T.);
#50=FACE_OUTER_BOUND('',#65,.T.);
#51=FACE_OUTER_BOUND('',#67,.T.);
#52=FACE_OUTER_BOUND('',#68,.T.);
#53=FACE_OUTER_BOUND('',#69,.T.);
#54=FACE_OUTER_BOUND('',#70,.T.);
#55=FACE_OUTER_BOUND('',#71,.T.);
#56=FACE_OUTER_BOUND('',#72,.T.);
#57=EDGE_LOOP('',(#142));
#58=EDGE_LOOP('',(#143));
#59=EDGE_LOOP('',(#144));
#60=EDGE_LOOP('',(#145,#146,#147,#148,#149,#150));
#61=EDGE_LOOP('',(#151,#152));
#62=EDGE_LOOP('',(#153,#154));
#63=EDGE_LOOP('',(#155,#156,#157,#158,#159));
#64=EDGE_LOOP('',(#160,#161,#162,#163));
#65=EDGE_LOOP('',(#164));
#66=EDGE_LOOP('',(#165));
#67=EDGE_LOOP('',(#166,#167,#168,#169,#170));
#68=EDGE_LOOP('',(#171,#172,#173,#174,#175,#176));
#69=EDGE_LOOP('',(#177,#178,#179,#180,#181,#182));
#70=EDGE_LOOP('',(#183,#184,#185,#186,#187));
#71=EDGE_LOOP('',(#188,#189,#190,#191,#192,#193,#194,#195,#196));
#72=EDGE_LOOP('',(#197,#198,#199,#200,#201));
#73=CIRCLE('',#245,12.);
#74=CIRCLE('',#246,11.7418548860454);
#75=CIRCLE('',#248,9.25);
#76=CIRCLE('',#250,10.4);
#77=CIRCLE('',#251,10.4);
#78=CIRCLE('',#252,10.4);
#79=CIRCLE('',#253,10.4);
#80=CIRCLE('',#255,38.4020218760031);
#81=CIRCLE('',#257,38.4020218760031);
#82=CIRCLE('',#260,9.75);
#83=CIRCLE('',#262,10.4);
#84=CIRCLE('',#264,11.25);
#85=CIRCLE('',#265,11.25);
#86=CIRCLE('',#267,11.25);
#87=CIRCLE('',#268,11.25);
#88=CIRCLE('',#271,12.);
#89=CIRCLE('',#272,12.);
#90=CIRCLE('',#273,48.9999999988612);
#91=CIRCLE('',#275,0.75);
#92=VERTEX_POINT('',#350);
#93=VERTEX_POINT('',#352);
#94=VERTEX_POINT('',#355);
#95=VERTEX_POINT('',#358);
#96=VERTEX_POINT('',#359);
#97=VERTEX_POINT('',#362);
#98=VERTEX_POINT('',#364);
#99=VERTEX_POINT('',#368);
#100=VERTEX_POINT('',#369);
#101=VERTEX_POINT('',#378);
#102=VERTEX_POINT('',#379);
#103=VERTEX_POINT('',#388);
#104=VERTEX_POINT('',#407);
#105=VERTEX_POINT('',#411);
#106=VERTEX_POINT('',#414);
#107=VERTEX_POINT('',#415);
#108=VERTEX_POINT('',#420);
#109=VERTEX_POINT('',#421);
#110=VERTEX_POINT('',#428);
#111=VERTEX_POINT('',#429);
#112=EDGE_CURVE('',#92,#92,#73,.T.);
#113=EDGE_CURVE('',#93,#93,#74,.T.);
#114=EDGE_CURVE('',#94,#94,#75,.T.);
#115=EDGE_CURVE('',#95,#96,#76,.T.);
#116=EDGE_CURVE('',#96,#95,#77,.T.);
#117=EDGE_CURVE('',#96,#97,#25,.T.);
#118=EDGE_CURVE('',#97,#98,#78,.T.);
#119=EDGE_CURVE('',#98,#97,#79,.T.);
#120=EDGE_CURVE('',#99,#100,#20,.T.);
#121=EDGE_CURVE('',#100,#99,#80,.T.);
#122=EDGE_CURVE('',#101,#102,#21,.T.);
#123=EDGE_CURVE('',#102,#101,#81,.T.);
#124=EDGE_CURVE('',#102,#103,#22,.T.);
#125=EDGE_CURVE('',#100,#101,#23,.T.);
#126=EDGE_CURVE('',#103,#99,#24,.T.);
#127=EDGE_CURVE('',#94,#104,#26,.T.);
#128=EDGE_CURVE('',#104,#104,#82,.T.);
#129=EDGE_CURVE('',#105,#105,#83,.T.);
#130=EDGE_CURVE('',#106,#107,#84,.T.);
#131=EDGE_CURVE('',#107,#105,#27,.T.);
#132=EDGE_CURVE('',#107,#106,#85,.T.);
#133=EDGE_CURVE('',#108,#109,#86,.T.);
#134=EDGE_CURVE('',#109,#108,#87,.T.);
#135=EDGE_CURVE('',#109,#106,#28,.T.);
#136=EDGE_CURVE('',#108,#98,#29,.T.);
#137=EDGE_CURVE('',#110,#111,#88,.T.);
#138=EDGE_CURVE('',#111,#110,#89,.T.);
#139=EDGE_CURVE('',#111,#92,#30,.T.);
#140=EDGE_CURVE('',#110,#103,#90,.T.);
#141=EDGE_CURVE('',#95,#93,#91,.T.);
#142=ORIENTED_EDGE('',*,*,#112,.F.);
#143=ORIENTED_EDGE('',*,*,#113,.T.);
#144=ORIENTED_EDGE('',*,*,#114,.F.);
#145=ORIENTED_EDGE('',*,*,#115,.F.);
#146=ORIENTED_EDGE('',*,*,#116,.F.);
#147=ORIENTED_EDGE('',*,*,#117,.T.);
#148=ORIENTED_EDGE('',*,*,#118,.T.);
#149=ORIENTED_EDGE('',*,*,#119,.T.);
#150=ORIENTED_EDGE('',*,*,#117,.F.);
#151=ORIENTED_EDGE('',*,*,#120,.F.);
#152=ORIENTED_EDGE('',*,*,#121,.F.);
#153=ORIENTED_EDGE('',*,*,#122,.F.);
#154=ORIENTED_EDGE('',*,*,#123,.F.);
#155=ORIENTED_EDGE('',*,*,#124,.F.);
#156=ORIENTED_EDGE('',*,*,#123,.T.);
#157=ORIENTED_EDGE('',*,*,#125,.F.);
#158=ORIENTED_EDGE('',*,*,#121,.T.);
#159=ORIENTED_EDGE('',*,*,#126,.F.);
#160=ORIENTED_EDGE('',*,*,#114,.T.);
#161=ORIENTED_EDGE('',*,*,#127,.T.);
#162=ORIENTED_EDGE('',*,*,#128,.T.);
#163=ORIENTED_EDGE('',*,*,#127,.F.);
#164=ORIENTED_EDGE('',*,*,#129,.F.);
#165=ORIENTED_EDGE('',*,*,#128,.F.);
#166=ORIENTED_EDGE('',*,*,#130,.T.);
#167=ORIENTED_EDGE('',*,*,#131,.T.);
#168=ORIENTED_EDGE('',*,*,#129,.T.);
#169=ORIENTED_EDGE('',*,*,#131,.F.);
#170=ORIENTED_EDGE('',*,*,#132,.T.);
#171=ORIENTED_EDGE('',*,*,#133,.F.);
#172=ORIENTED_EDGE('',*,*,#134,.F.);
#173=ORIENTED_EDGE('',*,*,#135,.T.);
#174=ORIENTED_EDGE('',*,*,#132,.F.);
#175=ORIENTED_EDGE('',*,*,#130,.F.);
#176=ORIENTED_EDGE('',*,*,#135,.F.);
#177=ORIENTED_EDGE('',*,*,#133,.T.);
#178=ORIENTED_EDGE('',*,*,#134,.T.);
#179=ORIENTED_EDGE('',*,*,#136,.T.);
#180=ORIENTED_EDGE('',*,*,#118,.F.);
#181=ORIENTED_EDGE('',*,*,#119,.F.);
#182=ORIENTED_EDGE('',*,*,#136,.F.);
#183=ORIENTED_EDGE('',*,*,#137,.F.);
#184=ORIENTED_EDGE('',*,*,#138,.F.);
#185=ORIENTED_EDGE('',*,*,#139,.T.);
#186=ORIENTED_EDGE('',*,*,#112,.T.);
#187=ORIENTED_EDGE('',*,*,#139,.F.);
#188=ORIENTED_EDGE('',*,*,#137,.T.);
#189=ORIENTED_EDGE('',*,*,#138,.T.);
#190=ORIENTED_EDGE('',*,*,#140,.T.);
#191=ORIENTED_EDGE('',*,*,#126,.T.);
#192=ORIENTED_EDGE('',*,*,#120,.T.);
#193=ORIENTED_EDGE('',*,*,#125,.T.);
#194=ORIENTED_EDGE('',*,*,#122,.T.);
#195=ORIENTED_EDGE('',*,*,#124,.T.);
#196=ORIENTED_EDGE('',*,*,#140,.F.);
#197=ORIENTED_EDGE('',*,*,#115,.T.);
#198=ORIENTED_EDGE('',*,*,#116,.T.);
#199=ORIENTED_EDGE('',*,*,#141,.T.);
#200=ORIENTED_EDGE('',*,*,#113,.F.);
#201=ORIENTED_EDGE('',*,*,#141,.F.);
#202=PLANE('',#244);
#203=PLANE('',#247);
#204=PLANE('',#254);
#205=PLANE('',#256);
#206=PLANE('',#261);
#207=ADVANCED_FACE('',(#43,#41),#202,.F.);
#208=ADVANCED_FACE('',(#44),#203,.F.);
#209=ADVANCED_FACE('',(#45),#37,.T.);
#210=ADVANCED_FACE('',(#46),#204,.F.);
#211=ADVANCED_FACE('',(#47),#205,.T.);
#212=ADVANCED_FACE('',(#48),#38,.F.);
#213=ADVANCED_FACE('',(#49),#17,.F.);
#214=ADVANCED_FACE('',(#50,#42),#206,.T.);
#215=ADVANCED_FACE('',(#51),#18,.T.);
#216=ADVANCED_FACE('',(#52),#39,.T.);
#217=ADVANCED_FACE('',(#53),#19,.T.);
#218=ADVANCED_FACE('',(#54),#40,.T.);
#219=ADVANCED_FACE('',(#55),#16,.F.);
#220=ADVANCED_FACE('',(#56),#15,.T.);
#221=CLOSED_SHELL('',(#207,#208,#209,#210,#211,#212,#213,#214,#215,#216,
#217,#218,#219,#220));
#222=DERIVED_UNIT_ELEMENT(#225,1.);
#223=DERIVED_UNIT_ELEMENT(#468,-3.);
#224=DIMENSIONAL_EXPONENTS(0.,1.,0.,0.,0.,0.,0.);
#225=(
CONVERSION_BASED_UNIT('gram',#227)
MASS_UNIT()
NAMED_UNIT(#224)
);
#226=(
MASS_UNIT()
NAMED_UNIT(*)
SI_UNIT(.KILO.,.GRAM.)
);
#227=MASS_MEASURE_WITH_UNIT(MASS_MEASURE(0.001),#226);
#228=DERIVED_UNIT((#222,#223));
#229=MEASURE_REPRESENTATION_ITEM('density measure',
POSITIVE_RATIO_MEASURE(1.),#228);
#230=PROPERTY_DEFINITION_REPRESENTATION(#235,#232);
#231=PROPERTY_DEFINITION_REPRESENTATION(#236,#233);
#232=REPRESENTATION('material name',(#234),#465);
#233=REPRESENTATION('density',(#229),#465);
#234=DESCRIPTIVE_REPRESENTATION_ITEM('\X2\04220438043F043E0432044B0435\X0\',
'\X2\04220438043F043E0432044B0435\X0\');
#235=PROPERTY_DEFINITION('material property','material name',#475);
#236=PROPERTY_DEFINITION('material property','density of part',#475);
#237=DATE_TIME_ROLE('creation_date');
#238=APPLIED_DATE_AND_TIME_ASSIGNMENT(#239,#237,(#475));
#239=DATE_AND_TIME(#240,#241);
#240=CALENDAR_DATE(2023,9,10);
#241=LOCAL_TIME(11,34,53.,#242);
#242=COORDINATED_UNIVERSAL_TIME_OFFSET(0,0,.BEHIND.);
#243=AXIS2_PLACEMENT_3D('',#348,#276,#277);
#244=AXIS2_PLACEMENT_3D('',#349,#278,#279);
#245=AXIS2_PLACEMENT_3D('',#351,#280,#281);
#246=AXIS2_PLACEMENT_3D('',#353,#282,#283);
#247=AXIS2_PLACEMENT_3D('',#354,#284,#285);
#248=AXIS2_PLACEMENT_3D('',#356,#286,#287);
#249=AXIS2_PLACEMENT_3D('',#357,#288,#289);
#250=AXIS2_PLACEMENT_3D('',#360,#290,#291);
#251=AXIS2_PLACEMENT_3D('',#361,#292,#293);
#252=AXIS2_PLACEMENT_3D('',#365,#295,#296);
#253=AXIS2_PLACEMENT_3D('',#366,#297,#298);
#254=AXIS2_PLACEMENT_3D('',#367,#299,#300);
#255=AXIS2_PLACEMENT_3D('',#376,#301,#302);
#256=AXIS2_PLACEMENT_3D('',#377,#303,#304);
#257=AXIS2_PLACEMENT_3D('',#386,#305,#306);
#258=AXIS2_PLACEMENT_3D('',#387,#307,#308);
#259=AXIS2_PLACEMENT_3D('',#406,#309,#310);
#260=AXIS2_PLACEMENT_3D('',#409,#312,#313);
#261=AXIS2_PLACEMENT_3D('',#410,#314,#315);
#262=AXIS2_PLACEMENT_3D('',#412,#316,#317);
#263=AXIS2_PLACEMENT_3D('',#413,#318,#319);
#264=AXIS2_PLACEMENT_3D('',#416,#320,#321);
#265=AXIS2_PLACEMENT_3D('',#418,#323,#324);
#266=AXIS2_PLACEMENT_3D('',#419,#325,#326);
#267=AXIS2_PLACEMENT_3D('',#422,#327,#328);
#268=AXIS2_PLACEMENT_3D('',#423,#329,#330);
#269=AXIS2_PLACEMENT_3D('',#425,#332,#333);
#270=AXIS2_PLACEMENT_3D('',#427,#335,#336);
#271=AXIS2_PLACEMENT_3D('',#430,#337,#338);
#272=AXIS2_PLACEMENT_3D('',#431,#339,#340);
#273=AXIS2_PLACEMENT_3D('',#460,#342,#343);
#274=AXIS2_PLACEMENT_3D('',#461,#344,#345);
#275=AXIS2_PLACEMENT_3D('',#462,#346,#347);
#276=DIRECTION('axis',(0.,0.,1.));
#277=DIRECTION('refdir',(1.,0.,0.));
#278=DIRECTION('center_axis',(0.,1.,0.));
#279=DIRECTION('ref_axis',(0.,0.,1.));
#280=DIRECTION('center_axis',(0.,1.,0.));
#281=DIRECTION('ref_axis',(1.,0.,0.));
#282=DIRECTION('center_axis',(-3.06161699786838E-17,1.,3.06161699786838E-17));
#283=DIRECTION('ref_axis',(0.,3.06161699786838E-17,-1.));
#284=DIRECTION('center_axis',(0.,1.,0.));
#285=DIRECTION('ref_axis',(0.,0.,1.));
#286=DIRECTION('center_axis',(0.,1.,0.));
#287=DIRECTION('ref_axis',(1.,0.,0.));
#288=DIRECTION('center_axis',(0.,1.,0.));
#289=DIRECTION('ref_axis',(-1.,0.,0.));
#290=DIRECTION('center_axis',(0.,1.,0.));
#291=DIRECTION('ref_axis',(-1.,0.,0.));
#292=DIRECTION('center_axis',(0.,1.,0.));
#293=DIRECTION('ref_axis',(-1.,0.,0.));
#294=DIRECTION('',(0.,-1.,0.));
#295=DIRECTION('center_axis',(0.,1.,0.));
#296=DIRECTION('ref_axis',(1.,0.,0.));
#297=DIRECTION('center_axis',(0.,1.,0.));
#298=DIRECTION('ref_axis',(1.,0.,0.));
#299=DIRECTION('center_axis',(1.,0.,0.));
#300=DIRECTION('ref_axis',(0.,0.,-1.));
#301=DIRECTION('center_axis',(1.,0.,0.));
#302=DIRECTION('ref_axis',(0.,1.,0.));
#303=DIRECTION('center_axis',(1.,0.,0.));
#304=DIRECTION('ref_axis',(0.,0.,-1.));
#305=DIRECTION('center_axis',(-1.,0.,0.));
#306=DIRECTION('ref_axis',(0.,1.,0.));
#307=DIRECTION('center_axis',(1.,0.,0.));
#308=DIRECTION('ref_axis',(0.,-0.999999997964136,-6.3810093279833E-5));
#309=DIRECTION('center_axis',(0.,-1.,0.));
#310=DIRECTION('ref_axis',(1.,0.,0.));
#311=DIRECTION('',(-0.707106781186545,-0.70710678118655,-8.6595605623549E-17));
#312=DIRECTION('center_axis',(0.,-1.,0.));
#313=DIRECTION('ref_axis',(1.,0.,0.));
#314=DIRECTION('center_axis',(0.,-1.,0.));
#315=DIRECTION('ref_axis',(0.,0.,-1.));
#316=DIRECTION('center_axis',(0.,1.,0.));
#317=DIRECTION('ref_axis',(1.,0.,0.));
#318=DIRECTION('center_axis',(0.,1.,0.));
#319=DIRECTION('ref_axis',(1.,0.,0.));
#320=DIRECTION('center_axis',(0.,-1.,0.));
#321=DIRECTION('ref_axis',(1.,0.,0.));
#322=DIRECTION('',(0.707106781186547,-0.707106781186548,-8.65956056235493E-17));
#323=DIRECTION('center_axis',(0.,-1.,0.));
#324=DIRECTION('ref_axis',(1.,0.,0.));
#325=DIRECTION('center_axis',(0.,1.,0.));
#326=DIRECTION('ref_axis',(-1.,0.,0.));
#327=DIRECTION('center_axis',(0.,1.,0.));
#328=DIRECTION('ref_axis',(1.,0.,0.));
#329=DIRECTION('center_axis',(0.,1.,0.));
#330=DIRECTION('ref_axis',(1.,0.,0.));
#331=DIRECTION('',(0.,-1.,0.));
#332=DIRECTION('center_axis',(0.,-1.,0.));
#333=DIRECTION('ref_axis',(1.,0.,0.));
#334=DIRECTION('',(0.707106781186547,0.707106781186548,8.65956056235493E-17));
#335=DIRECTION('center_axis',(0.,1.,0.));
#336=DIRECTION('ref_axis',(-1.,0.,0.));
#337=DIRECTION('center_axis',(0.,1.,0.));
#338=DIRECTION('ref_axis',(1.,0.,0.));
#339=DIRECTION('center_axis',(0.,1.,0.));
#340=DIRECTION('ref_axis',(1.,0.,0.));
#341=DIRECTION('',(0.,-1.,0.));
#342=DIRECTION('center_axis',(1.,2.71476073817887E-10,-1.13007493582418E-16));
#343=DIRECTION('ref_axis',(-1.13360357004271E-16,1.29979565746125E-9,-1.));
#344=DIRECTION('center_axis',(6.12323399573676E-17,-1.,-6.12323399573677E-17));
#345=DIRECTION('ref_axis',(9.11465114401507E-13,7.46368419916072E-17,-1.));
#346=DIRECTION('center_axis',(-1.,-6.12323399573118E-17,-9.11595728874992E-13));
#347=DIRECTION('ref_axis',(-9.11595728874992E-13,-4.66480262447545E-17,
1.));
#348=CARTESIAN_POINT('',(0.,0.,0.));
#349=CARTESIAN_POINT('Origin',(-8.38915492487618,-2.6023315030843,0.));
#350=CARTESIAN_POINT('',(3.61084507512382,-2.6023315030843,-1.46957615897682E-15));
#351=CARTESIAN_POINT('Origin',(-8.38915492487618,-2.6023315030843,0.));
#352=CARTESIAN_POINT('',(-8.38915492487618,-2.6023315030843,11.7418548860454));
#353=CARTESIAN_POINT('Origin',(-8.38915492487618,-2.6023315030843,1.41036501216207E-17));
#354=CARTESIAN_POINT('Origin',(-8.38915492487618,-8.60233150308431,0.));
#355=CARTESIAN_POINT('',(-17.6391549248762,-8.60233150308431,1.1327982892113E-15));
#356=CARTESIAN_POINT('Origin',(-8.38915492487618,-8.60233150308431,0.));
#357=CARTESIAN_POINT('Origin',(-8.38915492487618,-3.1023315030843,0.));
#358=CARTESIAN_POINT('',(-8.38915492488566,-3.06299167486412,10.4));
#359=CARTESIAN_POINT('',(2.01084507512382,-3.06299167486412,-1.27363267111325E-15));
#360=CARTESIAN_POINT('Origin',(-8.38915492487618,-3.06299167486412,-4.57252116609622E-33));
#361=CARTESIAN_POINT('Origin',(-8.38915492487618,-3.06299167486412,-4.57252116609622E-33));
#362=CARTESIAN_POINT('',(2.01084507512382,-4.1023315030843,-1.27363267111325E-15));
#363=CARTESIAN_POINT('',(2.01084507512382,-3.1023315030843,-1.27363267111325E-15));
#364=CARTESIAN_POINT('',(-18.7891549248762,-4.1023315030843,0.));
#365=CARTESIAN_POINT('Origin',(-8.38915492487618,-4.1023315030843,0.));
#366=CARTESIAN_POINT('Origin',(-8.38915492487618,-4.1023315030843,0.));
#367=CARTESIAN_POINT('Origin',(-7.38915492487618,37.2996903729188,0.));
#368=CARTESIAN_POINT('',(-7.38915492487618,-0.268540491530206,-7.95885129151698));
#369=CARTESIAN_POINT('',(-7.38915492487618,-0.268540491530206,7.95885129151699));
#370=CARTESIAN_POINT('Ctrl Pts',(-7.38915492487618,-0.268540491530855,-7.95885129151686));
#371=CARTESIAN_POINT('Ctrl Pts',(-7.38915492487618,0.179746470168344,-5.2469872566649));
#372=CARTESIAN_POINT('Ctrl Pts',(-7.38915492487913,0.386825487113533,-2.52997022652133));
#373=CARTESIAN_POINT('Ctrl Pts',(-7.38915492487913,0.386825480536644,2.52997031445543));
#374=CARTESIAN_POINT('Ctrl Pts',(-7.38915492487618,0.17974646312753,5.24698729941619));
#375=CARTESIAN_POINT('Ctrl Pts',(-7.38915492487618,-0.268540491533009,7.95885129151653));
#376=CARTESIAN_POINT('Origin',(-7.38915492487618,37.2996903729188,0.));
#377=CARTESIAN_POINT('Origin',(-9.38915492487618,37.2996903729188,0.));
#378=CARTESIAN_POINT('',(-9.38915492487618,-0.268540491530206,7.95885129151699));
#379=CARTESIAN_POINT('',(-9.38915492487618,-0.268540491530206,-7.95885129151698));
#380=CARTESIAN_POINT('Ctrl Pts',(-9.38915492487618,-0.268540491533432,7.95885129151646));
#381=CARTESIAN_POINT('Ctrl Pts',(-9.38915492487618,0.179746463125724,5.24698729942887));
#382=CARTESIAN_POINT('Ctrl Pts',(-9.38915492487913,0.386825480270946,2.52997031430808));
#383=CARTESIAN_POINT('Ctrl Pts',(-9.38915492487913,0.386825486847834,-2.52997022637399));
#384=CARTESIAN_POINT('Ctrl Pts',(-9.38915492487618,0.179746470166542,-5.24698725667759));
#385=CARTESIAN_POINT('Ctrl Pts',(-9.38915492487618,-0.268540491531279,-7.95885129151681));
#386=CARTESIAN_POINT('Origin',(-9.38915492487618,37.2996903729188,0.));
#387=CARTESIAN_POINT('Origin',(-8.38915492487618,37.2996903729188,0.));
#388=CARTESIAN_POINT('',(-8.38915493793782,-0.262707140775677,-7.98633690675637));
#389=CARTESIAN_POINT('Ctrl Pts',(-9.38915492487601,-0.268540491530816,-7.95885129151407));
#390=CARTESIAN_POINT('Ctrl Pts',(-9.29779515357993,-0.26747462958309,-7.96388248838596));
#391=CARTESIAN_POINT('Ctrl Pts',(-9.20644401110465,-0.266554953006544,-7.96821875702998));
#392=CARTESIAN_POINT('Ctrl Pts',(-8.87289526278355,-0.263729914443733,-7.98153106556422));
#393=CARTESIAN_POINT('Ctrl Pts',(-8.63080182395487,-0.26270714081253,-7.98633690658304));
#394=CARTESIAN_POINT('Ctrl Pts',(-8.38915493793782,-0.262707140775677,-7.98633690675638));
#395=CARTESIAN_POINT('Ctrl Pts',(-7.38915492487662,-0.268540491531815,7.95885129150936));
#396=CARTESIAN_POINT('Ctrl Pts',(-7.72072934909504,-0.264672130691985,7.97711114682954));
#397=CARTESIAN_POINT('Ctrl Pts',(-8.05432601430751,-0.262707140725655,7.98633690699167));
#398=CARTESIAN_POINT('Ctrl Pts',(-8.38915493793782,-0.262707140776719,7.9863369067515));
#399=CARTESIAN_POINT('Ctrl Pts',(-8.72385038264314,-0.262707140827762,7.98633690651143));
#400=CARTESIAN_POINT('Ctrl Pts',(-9.0574514409179,-0.264670624998082,7.97711825416878));
#401=CARTESIAN_POINT('Ctrl Pts',(-9.38915492487568,-0.268540491532059,7.95885129150821));
#402=CARTESIAN_POINT('Ctrl Pts',(-8.38915493793782,-0.262707140775677,-7.98633690675638));
#403=CARTESIAN_POINT('Ctrl Pts',(-8.05468958591056,-0.262707140724668,-7.98633690699629));
#404=CARTESIAN_POINT('Ctrl Pts',(-7.72107970764182,-0.264668043182359,-7.97713044113465));
#405=CARTESIAN_POINT('Ctrl Pts',(-7.38915492487628,-0.268540491530577,-7.9588512915152));
#406=CARTESIAN_POINT('Origin',(-8.38915492487618,-8.85233150308431,0.));
#407=CARTESIAN_POINT('',(-18.1391549248762,-9.10233150308431,-1.19403062916867E-15));
#408=CARTESIAN_POINT('',(-17.8891549248762,-8.85233150308431,-1.16341445918999E-15));
#409=CARTESIAN_POINT('Origin',(-8.38915492487618,-9.10233150308431,0.));
#410=CARTESIAN_POINT('Origin',(-19.6391549248762,-9.10233150308431,0.));
#411=CARTESIAN_POINT('',(-18.7891549248762,-9.10233150308431,1.27363267111325E-15));
#412=CARTESIAN_POINT('Origin',(-8.38915492487618,-9.10233150308431,0.));
#413=CARTESIAN_POINT('Origin',(-8.38915492487618,-8.67733150308431,0.));
#414=CARTESIAN_POINT('',(2.86084507512382,-8.25233150308431,-1.37772764904077E-15));
#415=CARTESIAN_POINT('',(-19.6391549248762,-8.25233150308431,1.37772764904077E-15));
#416=CARTESIAN_POINT('Origin',(-8.38915492487618,-8.25233150308431,0.));
#417=CARTESIAN_POINT('',(-19.2141549248762,-8.67733150308431,1.32568016007701E-15));
#418=CARTESIAN_POINT('Origin',(-8.38915492487618,-8.25233150308431,0.));
#419=CARTESIAN_POINT('Origin',(-8.38915492487618,-6.60233150308431,0.));
#420=CARTESIAN_POINT('',(-19.6391549248762,-4.9523315030843,1.37772764904077E-15));
#421=CARTESIAN_POINT('',(2.86084507512382,-4.9523315030843,-1.37772764904077E-15));
#422=CARTESIAN_POINT('Origin',(-8.38915492487618,-4.9523315030843,0.));
#423=CARTESIAN_POINT('Origin',(-8.38915492487618,-4.9523315030843,0.));
#424=CARTESIAN_POINT('',(2.86084507512382,-6.60233150308431,-1.37772764904077E-15));
#425=CARTESIAN_POINT('Origin',(-8.38915492487618,-4.5273315030843,0.));
#426=CARTESIAN_POINT('',(-19.2141549248762,-4.5273315030843,-1.32568016007701E-15));
#427=CARTESIAN_POINT('Origin',(-8.38915492487618,-1.8523315030843,0.));
#428=CARTESIAN_POINT('',(-8.38915492487618,-1.10233150308431,-12.));
#429=CARTESIAN_POINT('',(3.61084507512382,-1.1023315030843,-1.46957615897682E-15));
#430=CARTESIAN_POINT('Origin',(-8.38915492487618,-1.1023315030843,0.));
#431=CARTESIAN_POINT('Origin',(-8.38915492487618,-1.1023315030843,0.));
#432=CARTESIAN_POINT('',(3.61084507512382,-1.8523315030843,-1.46957615897682E-15));
#433=CARTESIAN_POINT('Ctrl Pts',(-8.38915493770988,-1.10233150352228,-12.000000001761));
#434=CARTESIAN_POINT('Ctrl Pts',(-20.3891550009607,-1.10233150677999,-12.000000001761));
#435=CARTESIAN_POINT('Ctrl Pts',(-20.3891550009607,-1.10233152237754,6.14898010625663E-8));
#436=CARTESIAN_POINT('Ctrl Pts',(-20.3891550009607,-1.10233153797509,12.0000001247406));
#437=CARTESIAN_POINT('Ctrl Pts',(-8.38915493770988,-1.10233153471738,12.0000001247406));
#438=CARTESIAN_POINT('Ctrl Pts',(3.61084512554091,-1.10233153145966,12.0000001247406));
#439=CARTESIAN_POINT('Ctrl Pts',(3.61084512554092,-1.10233151586211,6.1489801071035E-8));
#440=CARTESIAN_POINT('Ctrl Pts',(3.61084512554091,-1.10233150026456,-12.000000001761));
#441=CARTESIAN_POINT('Ctrl Pts',(-8.38915493770988,-1.10233150352228,-12.000000001761));
#442=CARTESIAN_POINT('Ctrl Pts',(-8.38915493808224,0.269260587509847,-6.5848837509889));
#443=CARTESIAN_POINT('Ctrl Pts',(-14.9740387523437,0.269260585722209,-6.5848837509889));
#444=CARTESIAN_POINT('Ctrl Pts',(-14.9740387523437,0.269260577163209,6.3272590463012E-8));
#445=CARTESIAN_POINT('Ctrl Pts',(-14.9740387523437,0.269260568604209,6.58488387753408));
#446=CARTESIAN_POINT('Ctrl Pts',(-8.38915493808224,0.269260570391847,6.58488387753408));
#447=CARTESIAN_POINT('Ctrl Pts',(-1.80427112382075,0.269260572179486,6.58488387753408));
#448=CARTESIAN_POINT('Ctrl Pts',(-1.80427112382075,0.269260580738486,6.32725904676591E-8));
#449=CARTESIAN_POINT('Ctrl Pts',(-1.80427112382075,0.269260589297486,-6.5848837509889));
#450=CARTESIAN_POINT('Ctrl Pts',(-8.38915493808224,0.269260587509847,-6.5848837509889));
#451=CARTESIAN_POINT('Ctrl Pts',(-8.38915493811415,0.386825485270705,-0.999999923336626));
#452=CARTESIAN_POINT('Ctrl Pts',(-9.38915492487618,0.386825484999229,-0.999999923336626));
#453=CARTESIAN_POINT('Ctrl Pts',(-9.38915492487618,0.386825483699433,6.34254008133394E-8));
#454=CARTESIAN_POINT('Ctrl Pts',(-9.38915492487618,0.386825482399638,1.00000005018743));
#455=CARTESIAN_POINT('Ctrl Pts',(-8.38915493811415,0.386825482671114,1.00000005018743));
#456=CARTESIAN_POINT('Ctrl Pts',(-7.38915495135213,0.38682548294259,1.00000005018743));
#457=CARTESIAN_POINT('Ctrl Pts',(-7.38915495135213,0.386825484242386,6.34254008140451E-8));
#458=CARTESIAN_POINT('Ctrl Pts',(-7.38915495135213,0.386825485542181,-0.999999923336626));
#459=CARTESIAN_POINT('Ctrl Pts',(-8.38915493811415,0.386825485270705,-0.999999923336626));
#460=CARTESIAN_POINT('Origin',(-8.38915492481477,-48.6023215378566,0.0312487541468544));
#461=CARTESIAN_POINT('Origin',(-8.38915492487618,-3.06299167486412,-4.57252116609622E-33));
#462=CARTESIAN_POINT('Origin',(-8.38915492488634,-3.06299167486412,11.15));
#463=UNCERTAINTY_MEASURE_WITH_UNIT(LENGTH_MEASURE(0.01),#467,
'DISTANCE_ACCURACY_VALUE',
'Maximum model space distance between geometric entities at asserted c
onnectivities');
#464=UNCERTAINTY_MEASURE_WITH_UNIT(LENGTH_MEASURE(0.01),#467,
'DISTANCE_ACCURACY_VALUE',
'Maximum model space distance between geometric entities at asserted c
onnectivities');
#465=(
GEOMETRIC_REPRESENTATION_CONTEXT(3)
GLOBAL_UNCERTAINTY_ASSIGNED_CONTEXT((#463))
GLOBAL_UNIT_ASSIGNED_CONTEXT((#467,#469,#470))
REPRESENTATION_CONTEXT('','3D')
);
#466=(
GEOMETRIC_REPRESENTATION_CONTEXT(3)
GLOBAL_UNCERTAINTY_ASSIGNED_CONTEXT((#464))
GLOBAL_UNIT_ASSIGNED_CONTEXT((#467,#469,#470))
REPRESENTATION_CONTEXT('','3D')
);
#467=(
LENGTH_UNIT()
NAMED_UNIT(*)
SI_UNIT(.MILLI.,.METRE.)
);
#468=(
LENGTH_UNIT()
NAMED_UNIT(*)
SI_UNIT(.CENTI.,.METRE.)
);
#469=(
NAMED_UNIT(*)
PLANE_ANGLE_UNIT()
SI_UNIT($,.RADIAN.)
);
#470=(
NAMED_UNIT(*)
SI_UNIT($,.STERADIAN.)
SOLID_ANGLE_UNIT()
);
#471=SHAPE_DEFINITION_REPRESENTATION(#472,#473);
#472=PRODUCT_DEFINITION_SHAPE('',$,#475);
#473=SHAPE_REPRESENTATION('',(#243),#465);
#474=PRODUCT_DEFINITION_CONTEXT('part definition',#479,'design');
#475=PRODUCT_DEFINITION('\X2\0414043504420430043B044C\X0\22',
'\X2\04170420\X0\1-\X2\041B0420\X0\-PG16 (zeta35034)',#476,#474);
#476=PRODUCT_DEFINITION_FORMATION('',$,#481);
#477=PRODUCT_RELATED_PRODUCT_CATEGORY('\X2\04170420\X0\1-\X2\041B0420\X0\-
PG16 (zeta35034)','\X2\04170420\X0\1-\X2\041B0420\X0\-PG16 (zeta35034)',
(#481));
#478=APPLICATION_PROTOCOL_DEFINITION('international standard',
'automotive_design',2009,#479);
#479=APPLICATION_CONTEXT(
'Core Data for Automotive Mechanical Design Process');
#480=PRODUCT_CONTEXT('part definition',#479,'mechanical');
#481=PRODUCT('\X2\0414043504420430043B044C\X0\22',
'\X2\04170420\X0\1-\X2\041B0420\X0\-PG16 (zeta35034)',$,(#480));
#482=PRESENTATION_STYLE_ASSIGNMENT((#483));
#483=SURFACE_STYLE_USAGE(.BOTH.,#486);
#484=SURFACE_STYLE_RENDERING_WITH_PROPERTIES($,#490,(#485));
#485=SURFACE_STYLE_TRANSPARENT(0.);
#486=SURFACE_SIDE_STYLE('',(#487,#484));
#487=SURFACE_STYLE_FILL_AREA(#488);
#488=FILL_AREA_STYLE('',(#489));
#489=FILL_AREA_STYLE_COLOUR('',#490);
#490=COLOUR_RGB('',0.749019607843137,0.749019607843137,0.749019607843137);
ENDSEC;
END-ISO-10303-21;
